Weston

Hey Weston! Yesterday we continued working on the Halo Theme song! Be sure to practice whenever possible. It’s really starting to come along. 

Remember the parts we were working on? I’ll post what those notes would look like on paper. Here they are:

(This includes the single notes section and power chords.)

e-------------------------------------------------------------------|
B-------------------------------------------------------------------|
G-------------------------------------------------------------------|
D-------------------------------------------------------------------|
A----7---9---10---12---12-10-9--------------------------------------|(x3)
E-000-000-000--000--000---------------------------------------------|

e----------------------------------------------------------|
B----------------------------------------------------------|
G----------------------------------------------------------|
D----------------------------------------------------------|
A--777--999-10-10-10--12-12-10-9---------------------------|(x2)
E----------------------------------------------------------|

e------------------------------------------------------|
B------------------------------------------------------|
G-----4----6----7----9----9-9--5--4--------------------|
D-----2----4----5----7----7-7--7--7--------------------|(x3)
A------------------------------------------------------|
E-000---000--000--000--000-----------------------------|
Advertisements

About Alex Hager

I'm a high school teenager with a passion in just about anything computer-related.
This entry was posted in Uncategorized. Bookmark the permalink.

Leave a Reply

Fill in your details below or click an icon to log in:

WordPress.com Logo

You are commenting using your WordPress.com account. Log Out / Change )

Twitter picture

You are commenting using your Twitter account. Log Out / Change )

Facebook photo

You are commenting using your Facebook account. Log Out / Change )

Google+ photo

You are commenting using your Google+ account. Log Out / Change )

Connecting to %s